ISO-10303-21;
HEADER;
FILE_DESCRIPTION (( 'STEP AP203' ),
    '1' );
FILE_NAME ('BK7-BPBSC-25.4-1200-1600.STEP',
    '2021-01-05T02:11:39',
    ( '' ),
    ( '' ),
    'SwSTEP 2.0',
    'SolidWorks 2020',
    '' );
FILE_SCHEMA (( 'CONFIG_CONTROL_DESIGN' ));
ENDSEC;

DATA;
#1 = CARTESIAN_POINT ( 'NONE',  ( 12.69999999999999574, 12.69999999999999574, -12.69999999999999929 ) ) ;
#2 = ORIENTED_EDGE ( 'NONE', *, *, #131, .F. ) ;
#3 = LINE ( 'NONE', #113, #244 ) ;
#4 = CC_DESIGN_PERSON_AND_ORGANIZATION_ASSIGNMENT ( #66, #44, ( #295 ) ) ;
#5 = APPLICATION_PROTOCOL_DEFINITION ( 'international standard', 'config_control_design', 1994, #100 ) ;
#6 = DIRECTION ( 'NONE',  ( 0.000000000000000000, 0.000000000000000000, 1.000000000000000000 ) ) ;
#7 = CARTESIAN_POINT ( 'NONE',  ( -12.69999999999999574, -12.69999999999999396, -12.69999999999999929 ) ) ;
#8 = DIRECTION ( 'NONE',  ( -2.220446049250312588E-16, 1.000000000000000000, 0.000000000000000000 ) ) ;
#9 = LINE ( 'NONE', #7, #315 ) ;
#10 = PERSON ( 'UNSPECIFIED', 'UNSPECIFIED', 'UNSPECIFIED', ('UNSPECIFIED'), ('UNSPECIFIED'), ('UNSPECIFIED') ) ;
#11 = PERSON_AND_ORGANIZATION_ROLE ( 'classification_officer' ) ;
#12 = VECTOR ( 'NONE', #217, 1000.000000000000000 ) ;
#13 = FACE_OUTER_BOUND ( 'NONE', #77, .T. ) ;
#14 = VERTEX_POINT ( 'NONE', #255 ) ;
#15 = DATE_AND_TIME ( #220, #47 ) ;
#16 = ORIENTED_EDGE ( 'NONE', *, *, #131, .T. ) ;
#17 = PRODUCT ( 'BK7-BPBSC-25.4-1200-1600', 'BK7-BPBSC-25.4-1200-1600', '', ( #143 ) ) ;
#18 = APPROVAL_ROLE ( '' ) ;
#19 = ORIENTED_EDGE ( 'NONE', *, *, #274, .F. ) ;
#20 = EDGE_LOOP ( 'NONE', ( #198, #147, #271, #270 ) ) ;
#21 = LINE ( 'NONE', #247, #289 ) ;
#22 = ORGANIZATION ( 'UNSPECIFIED', 'UNSPECIFIED', '' ) ;
#23 = CARTESIAN_POINT ( 'NONE',  ( 12.69999999999999574, 12.69999999999999574, -12.69999999999999929 ) ) ;
#24 = EDGE_CURVE ( 'NONE', #146, #222, #21, .T. ) ;
#25 = CC_DESIGN_PERSON_AND_ORGANIZATION_ASSIGNMENT ( #216, #185, ( #17 ) ) ;
#26 = DIRECTION ( 'NONE',  ( -0.000000000000000000, -0.000000000000000000, -1.000000000000000000 ) ) ;
#27 = CARTESIAN_POINT ( 'NONE',  ( 12.69999999999999929, 12.69999999999999929, 12.69999999999999929 ) ) ;
#28 = LOCAL_TIME ( 10, 11, 39.00000000000000000, #46 ) ;
#29 = EDGE_LOOP ( 'NONE', ( #224, #49, #223, #245 ) ) ;
#30 = PRODUCT_RELATED_PRODUCT_CATEGORY ( 'detail', '', ( #17 ) ) ;
#31 = CARTESIAN_POINT ( 'NONE',  ( 0.000000000000000000, 0.000000000000000000, -12.69999999999999929 ) ) ;
#32 = LINE ( 'NONE', #265, #212 ) ;
#33 = VECTOR ( 'NONE', #236, 999.9999999999998863 ) ;
#34 = CARTESIAN_POINT ( 'NONE',  ( 12.69999999999999929, 12.69999999999999929, 12.69999999999999929 ) ) ;
#35 = LINE ( 'NONE', #208, #75 ) ;
#36 = CARTESIAN_POINT ( 'NONE',  ( 12.69999999999999929, -12.69999999999999929, -12.69999999999999929 ) ) ;
#37 = EDGE_CURVE ( 'NONE', #96, #233, #84, .T. ) ;
#38 = CARTESIAN_POINT ( 'NONE',  ( 12.69999999999999929, 12.69999999999999929, 12.69999999999999929 ) ) ;
#39 = PRODUCT_DEFINITION_SHAPE ( 'NONE', 'NONE',  #70 ) ;
#40 = AXIS2_PLACEMENT_3D ( 'NONE', #141, #240, #8 ) ;
#41 = SECURITY_CLASSIFICATION_LEVEL ( 'unclassified' ) ;
#42 = ORIENTED_EDGE ( 'NONE', *, *, #137, .F. ) ;
#43 = ORIENTED_EDGE ( 'NONE', *, *, #181, .T. ) ;
#44 = PERSON_AND_ORGANIZATION_ROLE ( 'creator' ) ;
#45 = EDGE_LOOP ( 'NONE', ( #296, #101, #87 ) ) ;
#46 = COORDINATED_UNIVERSAL_TIME_OFFSET ( 8, 0, .AHEAD. ) ;
#47 = LOCAL_TIME ( 10, 11, 39.00000000000000000, #164 ) ;
#48 = VERTEX_POINT ( 'NONE', #1 ) ;
#49 = ORIENTED_EDGE ( 'NONE', *, *, #288, .F. ) ;
#50 = VECTOR ( 'NONE', #264, 1000.000000000000000 ) ;
#51 = LOCAL_TIME ( 10, 11, 39.00000000000000000, #187 ) ;
#52 = FACE_OUTER_BOUND ( 'NONE', #45, .T. ) ;
#53 = DIRECTION ( 'NONE',  ( -0.7071067811865475727, -0.7071067811865475727, 0.000000000000000000 ) ) ;
#54 = PLANE ( 'NONE',  #238 ) ;
#55 = CARTESIAN_POINT ( 'NONE',  ( 12.69999999999999574, 12.69999999999999574, 12.69999999999999929 ) ) ;
#56 = SECURITY_CLASSIFICATION ( '', '', #41 ) ;
#57 = ORIENTED_EDGE ( 'NONE', *, *, #201, .F. ) ;
#58 = DIRECTION ( 'NONE',  ( 0.7071067811865475727, 0.7071067811865475727, 0.000000000000000000 ) ) ;
#59 = DATE_AND_TIME ( #283, #125 ) ;
#60 = FACE_OUTER_BOUND ( 'NONE', #20, .T. ) ;
#61 = VECTOR ( 'NONE', #280, 1000.000000000000000 ) ;
#62 = VECTOR ( 'NONE', #26, 1000.000000000000000 ) ;
#63 = CALENDAR_DATE ( 2021, 5, 1 ) ;
#64 = CALENDAR_DATE ( 2021, 5, 1 ) ;
#65 =( GEOMETRIC_REPRESENTATION_CONTEXT ( 3 ) GLOBAL_UNCERTAINTY_ASSIGNED_CONTEXT ( ( #298 ) ) GLOBAL_UNIT_ASSIGNED_CONTEXT ( ( #83, #158, #263 ) ) REPRESENTATION_CONTEXT ( 'NONE', 'WORKASPACE' ) );
#66 = PERSON_AND_ORGANIZATION ( #10, #22 ) ;
#67 = EDGE_CURVE ( 'NONE', #222, #275, #129, .T. ) ;
#68 = ORIENTED_EDGE ( 'NONE', *, *, #37, .F. ) ;
#69 = DATE_AND_TIME ( #64, #28 ) ;
#70 = PRODUCT_DEFINITION ( 'UNKNOWN', '', #295, #319 ) ;
#71 = EDGE_LOOP ( 'NONE', ( #43, #42, #182, #135 ) ) ;
#72 = SHAPE_DEFINITION_REPRESENTATION ( #39, #314 ) ;
#73 = VERTEX_POINT ( 'NONE', #55 ) ;
#74 = ADVANCED_FACE ( 'NONE', ( #300 ), #204, .F. ) ;
#75 = VECTOR ( 'NONE', #301, 1000.000000000000000 ) ;
#76 = ORIENTED_EDGE ( 'NONE', *, *, #201, .T. ) ;
#77 = EDGE_LOOP ( 'NONE', ( #57, #151, #68 ) ) ;
#78 = DIRECTION ( 'NONE',  ( -0.000000000000000000, 0.000000000000000000, 1.000000000000000000 ) ) ;
#79 = AXIS2_PLACEMENT_3D ( 'NONE', #179, #78, #134 ) ;
#80 = VECTOR ( 'NONE', #136, 1000.000000000000000 ) ;
#81 = DIRECTION ( 'NONE',  ( -2.220446049250312588E-16, 1.000000000000000000, 0.000000000000000000 ) ) ;
#82 = CARTESIAN_POINT ( 'NONE',  ( 12.69999999999999929, -12.69999999999999929, 12.69999999999999929 ) ) ;
#83 =( LENGTH_UNIT ( ) NAMED_UNIT ( * ) SI_UNIT ( .MILLI., .METRE. ) );
#84 = LINE ( 'NONE', #106, #61 ) ;
#85 = DIRECTION ( 'NONE',  ( -0.7071067811865475727, 0.7071067811865475727, 0.000000000000000000 ) ) ;
#86 = AXIS2_PLACEMENT_3D ( 'NONE', #310, #166, #306 ) ;
#87 = ORIENTED_EDGE ( 'NONE', *, *, #24, .T. ) ;
#88 = EDGE_CURVE ( 'NONE', #146, #171, #110, .T. ) ;
#89 = LINE ( 'NONE', #162, #12 ) ;
#90 = MANIFOLD_SOLID_BREP ( 'Í¹Ì¨-À', #210 ) ;
#91 = DIRECTION ( 'NONE',  ( 0.000000000000000000, -0.000000000000000000, 1.000000000000000000 ) ) ;
#92 = APPLICATION_PROTOCOL_DEFINITION ( 'international standard', 'config_control_design', 1994, #197 ) ;
#93 = ADVANCED_FACE ( 'NONE', ( #297 ), #299, .F. ) ;
#94 = APPROVAL_DATE_TIME ( #69, #178 ) ;
#95 = CARTESIAN_POINT ( 'NONE',  ( -12.70000000000000284, 12.70000000000000284, 12.69999999999999929 ) ) ;
#96 = VERTEX_POINT ( 'NONE', #227 ) ;
#97 = CC_DESIGN_SECURITY_CLASSIFICATION ( #56, ( #295 ) ) ;
#98 = VERTEX_POINT ( 'NONE', #176 ) ;
#99 = PERSON_AND_ORGANIZATION ( #10, #22 ) ;
#100 = APPLICATION_CONTEXT ( 'configuration controlled 3d designs of mechanical parts and assemblies' ) ;
#101 = ORIENTED_EDGE ( 'NONE', *, *, #157, .T. ) ;
#102 = ORIENTED_EDGE ( 'NONE', *, *, #303, .T. ) ;
#103 = ADVANCED_FACE ( 'NONE', ( #175 ), #234, .F. ) ;
#104 = ORIENTED_EDGE ( 'NONE', *, *, #288, .T. ) ;
#105 = LINE ( 'NONE', #202, #62 ) ;
#106 = CARTESIAN_POINT ( 'NONE',  ( -12.69999999999999574, -12.69999999999999396, 12.69999999999999929 ) ) ;
#107 = VECTOR ( 'NONE', #277, 1000.000000000000000 ) ;
#108 = VECTOR ( 'NONE', #320, 1000.000000000000000 ) ;
#109 = PLANE ( 'NONE',  #177 ) ;
#110 = LINE ( 'NONE', #82, #50 ) ;
#111 = VERTEX_POINT ( 'NONE', #278 ) ;
#112 = PLANE ( 'NONE',  #253 ) ;
#113 = CARTESIAN_POINT ( 'NONE',  ( -12.69999999999999751, -12.69999999999999929, 12.69999999999999929 ) ) ;
#114 = EDGE_CURVE ( 'NONE', #48, #98, #304, .T. ) ;
#115 = DIRECTION ( 'NONE',  ( 0.000000000000000000, 0.000000000000000000, -1.000000000000000000 ) ) ;
#116 = COORDINATED_UNIVERSAL_TIME_OFFSET ( 8, 0, .AHEAD. ) ;
#117 = DIRECTION ( 'NONE',  ( -2.220446049250312588E-16, 1.000000000000000000, 0.000000000000000000 ) ) ;
#118 = LINE ( 'NONE', #215, #33 ) ;
#119 = LINE ( 'NONE', #133, #80 ) ;
#120 = CARTESIAN_POINT ( 'NONE',  ( -12.69999999999999751, -12.69999999999999929, 12.69999999999999929 ) ) ;
#121 = EDGE_CURVE ( 'NONE', #233, #73, #260, .T. ) ;
#122 = APPROVAL_DATE_TIME ( #15, #142 ) ;
#123 = EDGE_CURVE ( 'NONE', #275, #14, #3, .T. ) ;
#124 = EDGE_LOOP ( 'NONE', ( #2, #126, #221 ) ) ;
#125 = LOCAL_TIME ( 10, 11, 39.00000000000000000, #116 ) ;
#126 = ORIENTED_EDGE ( 'NONE', *, *, #181, .F. ) ;
#127 = EDGE_LOOP ( 'NONE', ( #16, #193, #313, #252 ) ) ;
#128 = CARTESIAN_POINT ( 'NONE',  ( 12.69999999999999574, 12.69999999999999574, 12.69999999999999929 ) ) ;
#129 = LINE ( 'NONE', #27, #153 ) ;
#130 = LINE ( 'NONE', #229, #108 ) ;
#131 = EDGE_CURVE ( 'NONE', #111, #14, #155, .T. ) ;
#132 = DIRECTION ( 'NONE',  ( 2.220446049250312588E-16, -1.000000000000000000, 0.000000000000000000 ) ) ;
#133 = CARTESIAN_POINT ( 'NONE',  ( 12.69999999999999574, 12.69999999999999574, 12.69999999999999929 ) ) ;
#134 = DIRECTION ( 'NONE',  ( 1.000000000000000000, 0.000000000000000000, 0.000000000000000000 ) ) ;
#135 = ORIENTED_EDGE ( 'NONE', *, *, #88, .T. ) ;
#136 = DIRECTION ( 'NONE',  ( 0.000000000000000000, 0.000000000000000000, -1.000000000000000000 ) ) ;
#137 = EDGE_CURVE ( 'NONE', #222, #111, #105, .T. ) ;
#138 = CARTESIAN_POINT ( 'NONE',  ( 12.69999999999999929, 12.69999999999999929, 12.69999999999999929 ) ) ;
#139 = LINE ( 'NONE', #243, #184 ) ;
#140 = CC_DESIGN_APPROVAL ( #142, ( #56 ) ) ;
#141 = CARTESIAN_POINT ( 'NONE',  ( 0.000000000000000000, 0.000000000000000000, 12.69999999999999929 ) ) ;
#142 = APPROVAL ( #312, 'UNSPECIFIED' ) ;
#143 = MECHANICAL_CONTEXT ( 'NONE', #100, 'mechanical' ) ;
#144 = PERSON_AND_ORGANIZATION ( #10, #22 ) ;
#145 = ADVANCED_FACE ( 'NONE', ( #52 ), #109, .T. ) ;
#146 = VERTEX_POINT ( 'NONE', #206 ) ;
#147 = ORIENTED_EDGE ( 'NONE', *, *, #88, .F. ) ;
#148 = COORDINATED_UNIVERSAL_TIME_OFFSET ( 8, 0, .AHEAD. ) ;
#149 = ORIENTED_EDGE ( 'NONE', *, *, #114, .F. ) ;
#150 = LOCAL_TIME ( 10, 11, 39.00000000000000000, #148 ) ;
#151 = ORIENTED_EDGE ( 'NONE', *, *, #121, .F. ) ;
#152 = DIRECTION ( 'NONE',  ( -0.7071067811865474617, -0.7071067811865474617, 0.000000000000000000 ) ) ;
#153 = VECTOR ( 'NONE', #152, 1000.000000000000114 ) ;
#154 = CARTESIAN_POINT ( 'NONE',  ( 0.000000000000000000, 0.000000000000000000, 12.69999999999999929 ) ) ;
#155 = LINE ( 'NONE', #316, #226 ) ;
#156 = CARTESIAN_POINT ( 'NONE',  ( 12.69999999999999574, 12.69999999999999574, 12.69999999999999929 ) ) ;
#157 = EDGE_CURVE ( 'NONE', #275, #146, #302, .T. ) ;
#158 =( NAMED_UNIT ( * ) PLANE_ANGLE_UNIT ( ) SI_UNIT ( $, .RADIAN. ) );
#159 = APPROVAL_ROLE ( '' ) ;
#160 = EDGE_CURVE ( 'NONE', #174, #48, #130, .T. ) ;
#161 = FACE_OUTER_BOUND ( 'NONE', #71, .T. ) ;
#162 = CARTESIAN_POINT ( 'NONE',  ( -12.69999999999999751, -12.69999999999999929, -12.69999999999999929 ) ) ;
#163 = DATE_AND_TIME ( #63, #51 ) ;
#164 = COORDINATED_UNIVERSAL_TIME_OFFSET ( 8, 0, .AHEAD. ) ;
#165 = PLANE ( 'NONE',  #230 ) ;
#166 = DIRECTION ( 'NONE',  ( 1.000000000000000000, -2.220446049250312588E-16, 0.000000000000000000 ) ) ;
#167 = VECTOR ( 'NONE', #258, 1000.000000000000000 ) ;
#168 = EDGE_LOOP ( 'NONE', ( #262, #291, #272, #104 ) ) ;
#169 = ORIENTED_EDGE ( 'NONE', *, *, #192, .T. ) ;
#170 = ADVANCED_FACE ( 'NONE', ( #279 ), #54, .F. ) ;
#171 = VERTEX_POINT ( 'NONE', #36 ) ;
#172 = CC_DESIGN_DATE_AND_TIME_ASSIGNMENT ( #163, #241, ( #70 ) ) ;
#173 = AXIS2_PLACEMENT_3D ( 'NONE', #237, #308, #211 ) ;
#174 = VERTEX_POINT ( 'NONE', #242 ) ;
#175 = FACE_OUTER_BOUND ( 'NONE', #124, .T. ) ;
#176 = CARTESIAN_POINT ( 'NONE',  ( -12.69999999999999574, -12.69999999999999396, -12.69999999999999929 ) ) ;
#177 = AXIS2_PLACEMENT_3D ( 'NONE', #154, #207, #232 ) ;
#178 = APPROVAL ( #287, 'UNSPECIFIED' ) ;
#179 = CARTESIAN_POINT ( 'NONE',  ( 0.000000000000000000, 0.000000000000000000, -12.69999999999999929 ) ) ;
#180 = CARTESIAN_POINT ( 'NONE',  ( -12.69999999999999751, -12.69999999999999929, 12.69999999999999929 ) ) ;
#181 = EDGE_CURVE ( 'NONE', #171, #111, #139, .T. ) ;
#182 = ORIENTED_EDGE ( 'NONE', *, *, #24, .F. ) ;
#183 = DIRECTION ( 'NONE',  ( -1.000000000000000000, 0.000000000000000000, 0.000000000000000000 ) ) ;
#184 = VECTOR ( 'NONE', #239, 1000.000000000000000 ) ;
#185 = PERSON_AND_ORGANIZATION_ROLE ( 'design_owner' ) ;
#186 = APPROVAL_STATUS ( 'not_yet_approved' ) ;
#187 = COORDINATED_UNIVERSAL_TIME_OFFSET ( 8, 0, .AHEAD. ) ;
#188 = PERSON_AND_ORGANIZATION ( #10, #22 ) ;
#189 = PLANE ( 'NONE',  #86 ) ;
#190 = AXIS2_PLACEMENT_3D ( 'NONE', #318, #132, #228 ) ;
#191 = CC_DESIGN_APPROVAL ( #196, ( #70 ) ) ;
#192 = EDGE_CURVE ( 'NONE', #98, #174, #9, .T. ) ;
#193 = ORIENTED_EDGE ( 'NONE', *, *, #123, .F. ) ;
#194 = CALENDAR_DATE ( 2021, 5, 1 ) ;
#195 = MANIFOLD_SOLID_BREP ( '¾µÏ', #261 ) ;
#196 = APPROVAL ( #186, 'UNSPECIFIED' ) ;
#197 = APPLICATION_CONTEXT ( 'configuration controlled 3d designs of mechanical parts and assemblies' ) ;
#198 = ORIENTED_EDGE ( 'NONE', *, *, #218, .T. ) ;
#199 = ORIENTED_EDGE ( 'NONE', *, *, #160, .T. ) ;
#200 = EDGE_LOOP ( 'NONE', ( #149, #19, #76, #102 ) ) ;
#201 = EDGE_CURVE ( 'NONE', #73, #96, #118, .T. ) ;
#202 = CARTESIAN_POINT ( 'NONE',  ( 12.69999999999999929, 12.69999999999999929, 12.69999999999999929 ) ) ;
#203 = ADVANCED_FACE ( 'NONE', ( #60 ), #309, .F. ) ;
#204 = PLANE ( 'NONE',  #190 ) ;
#205 = ADVANCED_FACE ( 'NONE', ( #213 ), #165, .F. ) ;
#206 = CARTESIAN_POINT ( 'NONE',  ( 12.69999999999999929, -12.69999999999999929, 12.69999999999999929 ) ) ;
#207 = DIRECTION ( 'NONE',  ( -0.000000000000000000, 0.000000000000000000, 1.000000000000000000 ) ) ;
#208 = CARTESIAN_POINT ( 'NONE',  ( -12.70000000000000284, 12.70000000000000284, 12.69999999999999929 ) ) ;
#209 = DIRECTION ( 'NONE',  ( -0.000000000000000000, -0.000000000000000000, -1.000000000000000000 ) ) ;
#210 = CLOSED_SHELL ( 'NONE', ( #205, #203, #317, #145, #103 ) ) ;
#211 = DIRECTION ( 'NONE',  ( 1.000000000000000000, 0.000000000000000000, 0.000000000000000000 ) ) ;
#212 = VECTOR ( 'NONE', #115, 1000.000000000000000 ) ;
#213 = FACE_OUTER_BOUND ( 'NONE', #127, .T. ) ;
#214 = APPROVAL_DATE_TIME ( #59, #196 ) ;
#215 = CARTESIAN_POINT ( 'NONE',  ( 12.69999999999999574, 12.69999999999999574, 12.69999999999999929 ) ) ;
#216 = PERSON_AND_ORGANIZATION ( #10, #22 ) ;
#217 = DIRECTION ( 'NONE',  ( 1.000000000000000000, 0.000000000000000000, 0.000000000000000000 ) ) ;
#218 = EDGE_CURVE ( 'NONE', #14, #171, #89, .T. ) ;
#219 = CC_DESIGN_APPROVAL ( #178, ( #295 ) ) ;
#220 = CALENDAR_DATE ( 2021, 5, 1 ) ;
#221 = ORIENTED_EDGE ( 'NONE', *, *, #218, .F. ) ;
#222 = VERTEX_POINT ( 'NONE', #38 ) ;
#223 = ORIENTED_EDGE ( 'NONE', *, *, #121, .T. ) ;
#224 = ORIENTED_EDGE ( 'NONE', *, *, #160, .F. ) ;
#225 = ADVANCED_FACE ( 'NONE', ( #13 ), #281, .T. ) ;
#226 = VECTOR ( 'NONE', #259, 1000.000000000000114 ) ;
#227 = CARTESIAN_POINT ( 'NONE',  ( -12.69999999999999574, -12.69999999999999396, 12.69999999999999929 ) ) ;
#228 = DIRECTION ( 'NONE',  ( 0.000000000000000000, 0.000000000000000000, 1.000000000000000000 ) ) ;
#229 = CARTESIAN_POINT ( 'NONE',  ( 12.69999999999999574, 12.69999999999999574, -12.69999999999999929 ) ) ;
#230 = AXIS2_PLACEMENT_3D ( 'NONE', #34, #269, #307 ) ;
#231 = CC_DESIGN_PERSON_AND_ORGANIZATION_ASSIGNMENT ( #268, #267, ( #70 ) ) ;
#232 = DIRECTION ( 'NONE',  ( 1.000000000000000000, 0.000000000000000000, 0.000000000000000000 ) ) ;
#233 = VERTEX_POINT ( 'NONE', #95 ) ;
#234 = PLANE ( 'NONE',  #79 ) ;
#235 = CARTESIAN_POINT ( 'NONE',  ( -12.69999999999999751, -12.69999999999999929, 12.69999999999999929 ) ) ;
#236 = DIRECTION ( 'NONE',  ( -0.7071067811865475727, -0.7071067811865475727, 0.000000000000000000 ) ) ;
#237 = CARTESIAN_POINT ( 'NONE',  ( 0.000000000000000000, 0.000000000000000000, 0.000000000000000000 ) ) ;
#238 = AXIS2_PLACEMENT_3D ( 'NONE', #156, #85, #58 ) ;
#239 = DIRECTION ( 'NONE',  ( -0.000000000000000000, 1.000000000000000000, -0.000000000000000000 ) ) ;
#240 = DIRECTION ( 'NONE',  ( 0.000000000000000000, 0.000000000000000000, 1.000000000000000000 ) ) ;
#241 = DATE_TIME_ROLE ( 'creation_date' ) ;
#242 = CARTESIAN_POINT ( 'NONE',  ( -12.70000000000000284, 12.70000000000000284, -12.69999999999999929 ) ) ;
#243 = CARTESIAN_POINT ( 'NONE',  ( 12.69999999999999929, 12.69999999999999929, -12.69999999999999929 ) ) ;
#244 = VECTOR ( 'NONE', #209, 1000.000000000000000 ) ;
#245 = ORIENTED_EDGE ( 'NONE', *, *, #274, .T. ) ;
#246 = PERSON_AND_ORGANIZATION_ROLE ( 'design_supplier' ) ;
#247 = CARTESIAN_POINT ( 'NONE',  ( 12.69999999999999929, 12.69999999999999929, 12.69999999999999929 ) ) ;
#248 = PERSON_AND_ORGANIZATION ( #10, #22 ) ;
#249 = EDGE_LOOP ( 'NONE', ( #294, #169, #199 ) ) ;
#250 = DATE_TIME_ROLE ( 'classification_date' ) ;
#251 = AXIS2_PLACEMENT_3D ( 'NONE', #31, #256, #81 ) ;
#252 = ORIENTED_EDGE ( 'NONE', *, *, #137, .T. ) ;
#253 = AXIS2_PLACEMENT_3D ( 'NONE', #138, #183, #6 ) ;
#254 = ADVANCED_FACE ( 'NONE', ( #286 ), #189, .F. ) ;
#255 = CARTESIAN_POINT ( 'NONE',  ( -12.69999999999999751, -12.69999999999999929, -12.69999999999999929 ) ) ;
#256 = DIRECTION ( 'NONE',  ( 0.000000000000000000, 0.000000000000000000, 1.000000000000000000 ) ) ;
#257 = AXIS2_PLACEMENT_3D ( 'NONE', #120, #285, #91 ) ;
#258 = DIRECTION ( 'NONE',  ( 1.000000000000000000, 0.000000000000000000, 0.000000000000000000 ) ) ;
#259 = DIRECTION ( 'NONE',  ( -0.7071067811865474617, -0.7071067811865474617, 0.000000000000000000 ) ) ;
#260 = LINE ( 'NONE', #128, #107 ) ;
#261 = CLOSED_SHELL ( 'NONE', ( #170, #254, #74, #225, #93 ) ) ;
#262 = ORIENTED_EDGE ( 'NONE', *, *, #192, .F. ) ;
#263 =( NAMED_UNIT ( * ) SI_UNIT ( $, .STERADIAN. ) SOLID_ANGLE_UNIT ( ) );
#264 = DIRECTION ( 'NONE',  ( -0.000000000000000000, -0.000000000000000000, -1.000000000000000000 ) ) ;
#265 = CARTESIAN_POINT ( 'NONE',  ( -12.69999999999999574, -12.69999999999999396, 12.69999999999999929 ) ) ;
#266 = VECTOR ( 'NONE', #53, 999.9999999999998863 ) ;
#267 = PERSON_AND_ORGANIZATION_ROLE ( 'creator' ) ;
#268 = PERSON_AND_ORGANIZATION ( #10, #22 ) ;
#269 = DIRECTION ( 'NONE',  ( 0.7071067811865475727, -0.7071067811865475727, 0.000000000000000000 ) ) ;
#270 = ORIENTED_EDGE ( 'NONE', *, *, #123, .T. ) ;
#271 = ORIENTED_EDGE ( 'NONE', *, *, #157, .F. ) ;
#272 = ORIENTED_EDGE ( 'NONE', *, *, #37, .T. ) ;
#273 = APPROVAL_ROLE ( '' ) ;
#274 = EDGE_CURVE ( 'NONE', #73, #48, #119, .T. ) ;
#275 = VERTEX_POINT ( 'NONE', #235 ) ;
#276 = CC_DESIGN_PERSON_AND_ORGANIZATION_ASSIGNMENT ( #188, #11, ( #56 ) ) ;
#277 = DIRECTION ( 'NONE',  ( 1.000000000000000000, -2.220446049250312588E-16, 0.000000000000000000 ) ) ;
#278 = CARTESIAN_POINT ( 'NONE',  ( 12.69999999999999929, 12.69999999999999929, -12.69999999999999929 ) ) ;
#279 = FACE_OUTER_BOUND ( 'NONE', #200, .T. ) ;
#280 = DIRECTION ( 'NONE',  ( -2.220446049250312588E-16, 1.000000000000000000, 0.000000000000000000 ) ) ;
#281 = PLANE ( 'NONE',  #40 ) ;
#282 = PERSON_AND_ORGANIZATION ( #10, #22 ) ;
#283 = CALENDAR_DATE ( 2021, 5, 1 ) ;
#284 = APPROVAL_PERSON_ORGANIZATION ( #99, #178, #273 ) ;
#285 = DIRECTION ( 'NONE',  ( 0.000000000000000000, 1.000000000000000000, 0.000000000000000000 ) ) ;
#286 = FACE_OUTER_BOUND ( 'NONE', #168, .T. ) ;
#287 = APPROVAL_STATUS ( 'not_yet_approved' ) ;
#288 = EDGE_CURVE ( 'NONE', #233, #174, #35, .T. ) ;
#289 = VECTOR ( 'NONE', #311, 1000.000000000000000 ) ;
#290 = APPROVAL_PERSON_ORGANIZATION ( #282, #196, #159 ) ;
#291 = ORIENTED_EDGE ( 'NONE', *, *, #303, .F. ) ;
#292 = CC_DESIGN_PERSON_AND_ORGANIZATION_ASSIGNMENT ( #248, #246, ( #295 ) ) ;
#293 = DATE_AND_TIME ( #194, #150 ) ;
#294 = ORIENTED_EDGE ( 'NONE', *, *, #114, .T. ) ;
#295 = PRODUCT_DEFINITION_FORMATION_WITH_SPECIFIED_SOURCE ( 'ANY', '', #17, .NOT_KNOWN. ) ;
#296 = ORIENTED_EDGE ( 'NONE', *, *, #67, .T. ) ;
#297 = FACE_OUTER_BOUND ( 'NONE', #249, .T. ) ;
#298 = UNCERTAINTY_MEASURE_WITH_UNIT (LENGTH_MEASURE( 1.000000000000000082E-05 ), #83, 'distance_accuracy_value', 'NONE');
#299 = PLANE ( 'NONE',  #251 ) ;
#300 = FACE_OUTER_BOUND ( 'NONE', #29, .T. ) ;
#301 = DIRECTION ( 'NONE',  ( 0.000000000000000000, 0.000000000000000000, -1.000000000000000000 ) ) ;
#302 = LINE ( 'NONE', #180, #167 ) ;
#303 = EDGE_CURVE ( 'NONE', #96, #98, #32, .T. ) ;
#304 = LINE ( 'NONE', #23, #266 ) ;
#305 = CC_DESIGN_DATE_AND_TIME_ASSIGNMENT ( #293, #250, ( #56 ) ) ;
#306 = DIRECTION ( 'NONE',  ( 0.000000000000000000, 0.000000000000000000, 1.000000000000000000 ) ) ;
#307 = DIRECTION ( 'NONE',  ( 0.7071067811865474617, 0.7071067811865474617, 0.000000000000000000 ) ) ;
#308 = DIRECTION ( 'NONE',  ( 0.000000000000000000, 0.000000000000000000, 1.000000000000000000 ) ) ;
#309 = PLANE ( 'NONE',  #257 ) ;
#310 = CARTESIAN_POINT ( 'NONE',  ( -12.69999999999999574, -12.69999999999999396, 12.69999999999999929 ) ) ;
#311 = DIRECTION ( 'NONE',  ( -0.000000000000000000, 1.000000000000000000, -0.000000000000000000 ) ) ;
#312 = APPROVAL_STATUS ( 'not_yet_approved' ) ;
#313 = ORIENTED_EDGE ( 'NONE', *, *, #67, .F. ) ;
#314 = ADVANCED_BREP_SHAPE_REPRESENTATION ( 'BK7-BPBSC-25.4-1200-1600', ( #90, #195, #173 ), #65 ) ;
#315 = VECTOR ( 'NONE', #117, 1000.000000000000000 ) ;
#316 = CARTESIAN_POINT ( 'NONE',  ( 12.69999999999999929, 12.69999999999999929, -12.69999999999999929 ) ) ;
#317 = ADVANCED_FACE ( 'NONE', ( #161 ), #112, .F. ) ;
#318 = CARTESIAN_POINT ( 'NONE',  ( 12.69999999999999574, 12.69999999999999574, 12.69999999999999929 ) ) ;
#319 = DESIGN_CONTEXT ( 'detailed design', #197, 'design' ) ;
#320 = DIRECTION ( 'NONE',  ( 1.000000000000000000, -2.220446049250312588E-16, 0.000000000000000000 ) ) ;
#321 = APPROVAL_PERSON_ORGANIZATION ( #144, #142, #18 ) ;
ENDSEC;
END-ISO-10303-21;
